#----------------------------------PLEASE NOTE---------------------------------#
#This file is the author's own work and represents their interpretation of the #
#song. You may only use this file for private study, scholarship, or research. #
#------------------------------------------------------------------------------#

AMELIA IN FLIGHT
As recorded by Dennis Caplinger
(From the 19999 Album HOME IS WHERE THE HEART IS)




Gtr I (G D G B D) - 'Untitled'

  H=120
 4/4
  Gtr I
  H    E E E E   E E E E E E E E   Q  Q   E  E  E  E   E  E  E E  E  E E  E
|--------4-----|-4-----------0---|-0-----------12----|-9-------9-------9-----|
|------5-----5-|---5-------------|-------12----------|---10------10------10--|
|--------------|-----7S9---9-----|-9-----------------|-----------------------|
|--------------|-----------------|-------------------|-----------------------|
|----------0---|---------0-----0-|----0-----10----10-|------10------10-------|


  E E E E E E E E   E E E E E E E E   E E E E E E E E   Q  E E E E E E
|-----7---4---0---|---0-----0-------|-0---0-----------|----------------|
|---7-------5-----|-5-----5-----5---|---5-----0-------|-0----0-----0---|
|-----------------|-----5-----5---5-|-------5-----5---|----2S4---4-----|
|-----------------|-----------------|-----------7---7-|----------------|
|-0-----0-------0-|-----------------|-----------------|--------0-----0-|


  Q  E E E E E E   E E E E E E E E   Q  Q  E E E E   E E Q  E E E E
|----------------|-----------------|-0---------0---|----------------|
|-0----0---------|-------------0---|-------0-----0-|---0------------|
|------------0---|-----------0-----|-0-------5-----|-5--------------|
|--------2-4---2-|-4-0-2---2-----2-|---------------|-----7--4-2-0-2-|
|----0-----------|-----------------|---------------|----------------|


  E E E E E E E E   Q  Q    E E   E E   Q  Q  E E Q    Q  Q  E E E E
|-----------0---4-|---------------5---|-----------5--|----9----9-----|
|-------0-----5---|----7b8----7b8-----|-7r=5--3-5----|-------7-----7-|
|---0-----5-------|-------------------|--------------|-8-------------|
|-4---7-----------|-------------------|--------------|---------------|
|-----------------|-0-------0-------0-|--------------|-----------7---|


  E E E E Q  Q    E E Q  E E E E   E E E E Q  Q    E E E E E E E E
|-9-------------|-9------9-----9-|---9-----7--5--|-4-------4-----4-|
|-------7-------|----------------|---------------|-----------3-----|
|-----8---8--8--|---7--------7---|-7-----5----4--|---2---2-----2---|
|---------------|----------0-----|-----0---------|-----0-----------|
|---0-----------|-----0----------|---------------|-----------------|


  E E E E Q  Q    E E E E E E E E   E E E E Q  Q    Q  E E E E E E
|---4-----2--0--|-2-------2-----2-|---2-----0-----|--------0-----0-|
|---------------|-----------------|------------1--|-0----0---0-----|
|-2-----0-------|---0---0-----0---|-------0-------|----2-4-----4---|
|-----0---------|-----2-----2-----|-2---2---------|----------------|
|---------------|-----------------|---------------|----------------|


  Q  E E E E E E   E E Q  E E E E   E E E E E E E E   E E E E E E E E
|------0---------|------------0---|-3---0---------0-|-----------------|
|-0--------------|----------0-----|---5-----0-------|-----------------|
|------------0---|-0---0--2S4-----|-------5-----0---|-2-0-----------0-|
|--------2-4---4-|---4------------|-----------7-----|-----4-2-0-2-4---|
|----0-----------|--------------0-|-----------------|-----------------|


  Q  E E E E Q    Q  E E E E E E   E E E E E E E E   E E E E E E E E
|------0--------|------0-----2---|-------5-----5---|-4-----5---4-----|
|------------0--|-1--0h1---1-----|-3S5-5-----5-----|---4-----------7-|
|-2------0-2----|----------------|-----------------|-----4---4---4S8-|
|---------------|----------------|-----------------|-----------------|
|----0----------|--------0-----0-|---------0-----0-|-----------------|


  E E E  E E E E E    E  E  E  E  E  E  E  E
|-9-----10---9-----|-13-------14-------13----|
|---7------------7S|=12----------------------|
|-----8----8---8---|-------11-------11-------|
|------------------|-------------------------|
|------------------|----11-------11-------11-|


   H     E  E  E  E    E  E  E  E  E  E  E  E
|-16----12-14-14-14-|-14-14-12-14-14-14-14-14-|
|-------------------|-------------------------|
|-------------------|-------------------------|
|-------------------|-------------------------|
|-------------------|-------------------------|


   E  E  E  E  E  E  E  E    E  E  E E  E  E E  E
|-12-14-14-14-12-14-14-17-|-------19------19------|
|-------------------------|-17S19------19------20-|
|-------------------------|-----------------------|
|-------------------------|-----------------------|
|-------------------------|----------0-------0----|


   Q   Q   Q   Q     E  E  E E  E  E  E  E
|-21--19--17--16--|-------17------17-------|
|-----19--17--15--|-17-17------17----17-17-|
|-----------------|------------------------|
|-----------------|------------------------|
|-----------------|----------0-------------|


   Q   E  E E  E  E E    E  E  E  E  E  E  E  E
|-17-----16------14---|-13-------13-------13----|
|-----15------13------|-------12-------12-------|
|---------------------|----11-------------------|
|---------------------|-------------------------|
|-----------0-------0-|-------------11-------11-|


   E  E  E  E E  E  Q    E E E E E E E E
|-13-------13----------|-----7-8-9-7-----|
|-------12------12-----|---8---------8-7-|
|------------------11--|-9---------------|
|----------------------|-----------------|
|----11-------0--------|-----------------|


  E E E E E E E E   E E E E E E E E   E  E  Q   E  E  Q    E E  E E E  E E  E
|-7---------2-4-3-|-2---------------|------12--------12--|-----10-----10------|
|---8-7-8---------|---3-----3-----3-|--------------------|--------------------|
|-----------------|-----4-2---2-4---|-4S11-----10h11-----|-8h9----8h9----9S11-|
|-----------------|-----------------|--------------------|--------------------|
|-----------------|-----------------|--------------------|--------------------|


   E  E  E  E  E  E  E E    E  E  E  E  E  E  E  E    H
|-------14-------14------|-------13----13----------|-13----|
|------------------------|----12----------12----12-|-------|
|-11h12----11h12----11---|-11----------------11----|-------|
|------------------------|-------------------------|-------|
|------------------------|----------11-------------|-------|



Duration Legend
---------------
W - whole; H - half; Q - quarter; E - 8th; S - 16th; T - 32nd; X - 64th; a - acciaccatura
+ - note tied to previous; . - note dotted; .. - note double dotted
Uncapitalized letters represent notes that are staccato (1/2 duration)
Irregular groupings are notated above the duration line
Duration letters will always appear directly above the note/fret number it represents the
duration for.  Duration letters with no fret number below them represent rests.  Multi-
bar rests are notated in the form Wxn, where n is the number of bars to rest for.  Low
melody durations appear below the staff

Tablature Legend
----------------
 h   - hammer-on
 p   - pull-off
 b   - bend
 pb  - pre-bend
 r   - bend release (if no number after the r, then release immediately)
 /\  - slide into or out of (from/to "nowhere")
 s   - legato slide
 S   - shift slide
<n> - natural harmonic
[n]  - artificial harmonic
n(n) - tapped harmonic
 ~   - vibrato
 tr  - trill
 T   - tap
 TP  - trem. picking
 PM  - palm muting
\n/  - tremolo bar dip; n = amount to dip
 \n  - tremolo bar down
 n/  - tremolo bar up
/n\  - tremolo bar inverted dip
 =   - hold bend; also acts as connecting device for hammers/pulls
 <> - volume swell (louder/softer)
 x   - on rhythm slash represents muted slash
 o   - on rhythm slash represents single note slash

Misc Legend
-----------
 |  - bar
||  - double bar
||o - repeat start
o|| - repeat end
*|  - double bar (ending)
 :  - bar (freetime)
 $  - Segno
 &  - Coda
Tempo markers - <E/E./Q/Q./H/H.> = BPM(8/16=s8/s16), where s8 = swing 8ths, s16 = swing 16ths


** Generated using Power Tab Editor by Brad Larsen: The Official Power Tab Web Site

inserted by FC2 system