HEAD OVER HEELS BACKUP 1ST
As recorded by Sonny Osborne
(From the 1991 Album BLUEGRASS COLLECTION)




  H=110
 4/4
  Gtr I
  Q  Q  Q  Q     Q   E  E  E  E  E  E
|-------------|-----17-------17-------|
|-------------|-----------15-------15-|
|-0-----------|--------16-------16----|
|----0--2--4s=|=17--------------------|
|-------------|-----------------------|


   E  E  E  E E  E  Q    Q  E E E E E  E
|-17-------17----------|--------------12/--|
|-------15------15-----|------------8------|
|----16------------16s=|=0--2-7-7-9--------|
|----------------------|-------------------|
|-------------0--------|-------------------|


  E  E  E     E E E Q     Q  E E E E E E   Q  Q  E E E E   Q  E E E E E E
|---12-------12---------|--------0-----0-|-------------0-|--------0-----0-|
|------11b13------8-----|------0---0-----|---------------|----------------|
|-------------------9\--|-0--2S4-----3p2-|-0--2----2-----|-0----2S4-0-----|
|-----------------------|----------------|-----------4---|------------2p0-|
|---------------0-------|----------------|-------0-------|----0-----------|


  Q  Q  E E E E
|----0------0---|----|
|---------0-----|----|
|-0-----2S4-----|----|
|---------------|----|
|----0--------0-|----|



Duration Legend
---------------
W - whole; H - half; Q - quarter; E - 8th; S - 16th; T - 32nd; X - 64th; a - acciaccatura
+ - note tied to previous; . - note dotted; .. - note double dotted
Uncapitalized letters represent notes that are staccato (1/2 duration)
Irregular groupings are notated above the duration line
Duration letters will always appear directly above the note/fret number it represents the
duration for.  Duration letters with no fret number below them represent rests.  Multi-
bar rests are notated in the form Wxn, where n is the number of bars to rest for.  Low
melody durations appear below the staff

Tablature Legend
----------------
 h   - hammer-on
 p   - pull-off
 b   - bend
 pb  - pre-bend
 r   - bend release (if no number after the r, then release immediately)
 /\  - slide into or out of (from/to "nowhere")
 s   - legato slide
 S   - shift slide
<n> - natural harmonic
[n]  - artificial harmonic
n(n) - tapped harmonic
 ~   - vibrato
 tr  - trill
 T   - tap
 TP  - trem. picking
 PM  - palm muting
\n/  - tremolo bar dip; n = amount to dip
 \n  - tremolo bar down
 n/  - tremolo bar up
/n\  - tremolo bar inverted dip
 =   - hold bend; also acts as connecting device for hammers/pulls
 <> - volume swell (louder/softer)
 x   - on rhythm slash represents muted slash
 o   - on rhythm slash represents single note slash

Misc Legend
-----------
 |  - bar
||  - double bar
||o - repeat start
o|| - repeat end
*|  - double bar (ending)
 :  - bar (freetime)
 $  - Segno
 &  - Coda
Tempo markers - <E/E./Q/Q./H/H.> = BPM(8/16=s8/s16), where s8 = swing 8ths, s16 = swing 16ths


** Generated using Power Tab Editor by Brad Larsen: The Official Power Tab Web Site

inserted by FC2 system