SUNNY SIDE OF THE MOUNTAIN BACKUP 1ST
As recorded by Sonny Osborne
(From the 1991 Album BLUEGRASS COLLECTION)




  H=110
  Gtr I
  Q  E E E E E E   Q  E E E E E E   Q  E E E E E E   Q  E E E E E E
|--------0-----0-|--------0-----0-|--------0-----0-|--------0-----0-|
|----------------|----------------|----------------|------0---------|
|------0---0-----|-0----0-----0---|------0---0-----|-0--2S4---0-----|
|------------0h2-|----2S5---------|------------2S5-|------------2p0-|
|-0--0-----------|----------0-----|-0--0-----------|----------------|


  Q  Q  E E E E   Q  Q  Q  E E   Q  E E E E E E   Q  E E E E E E
|----0------0---|--------------|----------------|------4---------|
|---------0-----|-1------------|-1--1-1---------|----3-----3-----|
|-0-----2S4-----|----2--0----0-|--------2-0---0-|------------4-2-|
|---------------|----------2---|------------2---|-0--------------|
|----0--------0-|--------------|----------------|--------0-------|


                                         |-3-|
  Q  E E E E E E   Q  Q  E E E E   E E E E E E E E E   Q  Q  E E E E
|------4-------4-|----0--------0-|-----------------0-|-------0-----0--|
|-3--------3-----|---------------|-------------------|---------0------|
|----4---2-------|-0-------0-----|-0-2h3-2h3p0-0-----|-0---------3p2--|
|------------2h4-|-------0---4---|---------------2p0-|----------------|
|----------------|----0----------|-------------------|----0-----------|


  Q  E E E E E E   Q  Q  E E E E   Q  E E E E E E   Q  Q  E E E E
|--------0-----0-|----5--------0-|--------0-----0-|----5------0---|
|----------------|---------------|----------------|---------0-----|
|-0----0-----0---|-0-------0-----|-0----2h3-0-----|-0-----2S4-----|
|----2S5---------|-------0---2S5-|------------2p0-|---------------|
|----------0-----|----0----------|----0-----------|----0--------0-|


  Q  Q  Q  E E   Q  E E E E E E   Q  E E E E E E   Q  E E E E E E
|--------------|----------------|------4---------|------4-------4-|
|-1------------|-1--1-1---------|----3-----3-----|-3--------3-----|
|----2--0----0-|--------2-0---0-|------------4-2-|----4---2-------|
|----------2---|------------2---|-0--------------|------------2h4-|
|--------------|----------------|--------0-------|----------------|


  Q  E E E E E E   Q  E E E E E E   Q  Q  Q  Q
|------4-------4-|--------0-----0-|-------------|----|
|----3-----3-----|----------------|-------------|----|
|----------------|-0----2h3-0-----|-0-----------|----|
|-0------2---4---|------------2p0-|----0--2--4--|----|
|----------------|----0-----------|-------------|----|



Duration Legend
---------------
W - whole; H - half; Q - quarter; E - 8th; S - 16th; T - 32nd; X - 64th; a - acciaccatura
+ - note tied to previous; . - note dotted; .. - note double dotted
Uncapitalized letters represent notes that are staccato (1/2 duration)
Irregular groupings are notated above the duration line
Duration letters will always appear directly above the note/fret number it represents the
duration for.  Duration letters with no fret number below them represent rests.  Multi-
bar rests are notated in the form Wxn, where n is the number of bars to rest for.  Low
melody durations appear below the staff

Tablature Legend
----------------
 h   - hammer-on
 p   - pull-off
 b   - bend
 pb  - pre-bend
 r   - bend release (if no number after the r, then release immediately)
 /\  - slide into or out of (from/to "nowhere")
 s   - legato slide
 S   - shift slide
<n> - natural harmonic
[n]  - artificial harmonic
n(n) - tapped harmonic
 ~   - vibrato
 tr  - trill
 T   - tap
 TP  - trem. picking
 PM  - palm muting
\n/  - tremolo bar dip; n = amount to dip
 \n  - tremolo bar down
 n/  - tremolo bar up
/n\  - tremolo bar inverted dip
 =   - hold bend; also acts as connecting device for hammers/pulls
 <> - volume swell (louder/softer)
 x   - on rhythm slash represents muted slash
 o   - on rhythm slash represents single note slash

Misc Legend
-----------
 |  - bar
||  - double bar
||o - repeat start
o|| - repeat end
*|  - double bar (ending)
 :  - bar (freetime)
 $  - Segno
 &  - Coda
Tempo markers - <E/E./Q/Q./H/H.> = BPM(8/16=s8/s16), where s8 = swing 8ths, s16 = swing 16ths


** Generated using Power Tab Editor by Brad Larsen: The Official Power Tab Web Site

inserted by FC2 system